  0
SECTION
  2
HEADER
  9
$ACADVER
  1
AC1015
  9
$ACADMAINTVER
 70
     6
  9
$DWGCODEPAGE
  3
ANSI_1254
  9
$INSBASE
 10
0.0
 20
0.0
 30
0.0
  9
$EXTMIN
 10
0.0
 20
0.0
 30
0.0
  9
$EXTMAX
 10
279.4
 20
215.9
 30
0.0
  9
$LIMMIN
 10
0.0
 20
0.0
  9
$LIMMAX
 10
279.4
 20
215.9
  9
$ORTHOMODE
 70
     0
  9
$REGENMODE
 70
     1
  9
$FILLMODE
 70
     1
  9
$QTEXTMODE
 70
     0
  9
$MIRRTEXT
 70
     1
  9
$LTSCALE
 40
1.0
  9
$ATTMODE
 70
     1
  9
$TEXTSIZE
 40
3.5
  9
$TRACEWID
 40
1.0
  9
$TEXTSTYLE
  7
Standard
  9
$CLAYER
  8
0
  9
$CELTYPE
  6
ByLayer
  9
$CECOLOR
 62
   256
  9
$CELTSCALE
 40
1.0
  9
$DISPSILH
 70
     0
  9
$DIMSCALE
 40
1.0
  9
$DIMASZ
 40
3.5
  9
$DIMEXO
 40
1.0
  9
$DIMDLI
 40
3.75
  9
$DIMRND
 40
0.0
  9
$DIMDLE
 40
0.0
  9
$DIMEXE
 40
1.0
  9
$DIMTP
 40
0.0
  9
$DIMTM
 40
0.0
  9
$DIMTXT
 40
3.5
  9
$DIMCEN
 40
2.5
  9
$DIMTSZ
 40
0.0
  9
$DIMTOL
 70
     0
  9
$DIMLIM
 70
     0
  9
$DIMTIH
 70
     1
  9
$DIMTOH
 70
     1
  9
$DIMSE1
 70
     0
  9
$DIMSE2
 70
     0
  9
$DIMTAD
 70
     1
  9
$DIMZIN
 70
     0
  9
$DIMBLK
  1

  9
$DIMASO
 70
     1
  9
$DIMSHO
 70
     1
  9
$DIMPOST
  1

  9
$DIMAPOST
  1

  9
$DIMALT
 70
     0
  9
$DIMALTD
 70
     3
  9
$DIMALTF
 40
0.0393700787
  9
$DIMLFAC
 40
1.0
  9
$DIMTOFL
 70
     1
  9
$DIMTVP
 40
0.0
  9
$DIMTIX
 70
     0
  9
$DIMSOXD
 70
     0
  9
$DIMSAH
 70
     0
  9
$DIMBLK1
  1

  9
$DIMBLK2
  1

  9
$DIMSTYLE
  2
ISO-25
  9
$DIMCLRD
 70
     0
  9
$DIMCLRE
 70
     0
  9
$DIMCLRT
 70
     0
  9
$DIMTFAC
 40
1.0
  9
$DIMGAP
 40
1.524
  9
$DIMJUST
 70
     0
  9
$DIMSD1
 70
     0
  9
$DIMSD2
 70
     0
  9
$DIMTOLJ
 70
     0
  9
$DIMTZIN
 70
     0
  9
$DIMALTZ
 70
     0
  9
$DIMALTTZ
 70
     0
  9
$DIMUPT
 70
     0
  9
$DIMDEC
 70
     2
  9
$DIMTDEC
 70
     2
  9
$DIMALTU
 70
     2
  9
$DIMALTTD
 70
     3
  9
$DIMTXSTY
  7
Standard
  9
$DIMAUNIT
 70
     0
  9
$DIMADEC
 70
     2
  9
$DIMALTRND
 40
0.0
  9
$DIMAZIN
 70
     0
  9
$DIMDSEP
 70
    44
  9
$DIMATFIT
 70
     3
  9
$DIMFRAC
 70
     0
  9
$DIMLDRBLK
  1

  9
$DIMLUNIT
 70
     2
  9
$DIMLWD
 70
    -2
  9
$DIMLWE
 70
    -2
  9
$DIMTMOVE
 70
     0
  9
$LUNITS
 70
     2
  9
$LUPREC
 70
     2
  9
$SKETCHINC
 40
1.0
  9
$FILLETRAD
 40
10.0
  9
$AUNITS
 70
     0
  9
$AUPREC
 70
     2
  9
$MENU
  1
.
  9
$ELEVATION
 40
0.0
  9
$PELEVATION
 40
0.0
  9
$THICKNESS
 40
0.0
  9
$LIMCHECK
 70
     0
  9
$CHAMFERA
 40
0.0
  9
$CHAMFERB
 40
0.0
  9
$CHAMFERC
 40
0.0
  9
$CHAMFERD
 40
0.0
  9
$SKPOLY
 70
     0
  9
$TDCREATE
 40
2460682.519523877
  9
$TDUCREATE
 40
2460682.394523877
  9
$TDUPDATE
 40
2460682.519524248
  9
$TDUUPDATE
 40
2460682.394524248
  9
$TDINDWG
 40
0.0000000116
  9
$TDUSRTIMER
 40
0.0000000116
  9
$USRTIMER
 70
     1
  9
$ANGBASE
 50
0.0
  9
$ANGDIR
 70
     0
  9
$PDMODE
 70
     0
  9
$PDSIZE
 40
-1.0
  9
$PLINEWID
 40
0.0
  9
$SPLFRAME
 70
     0
  9
$SPLINETYPE
 70
     6
  9
$SPLINESEGS
 70
     8
  9
$HANDSEED
  5
BF
  9
$SURFTAB1
 70
     6
  9
$SURFTAB2
 70
     6
  9
$SURFTYPE
 70
     6
  9
$SURFU
 70
     6
  9
$SURFV
 70
     6
  9
$UCSBASE
  2

  9
$UCSNAME
  2

  9
$UCSORG
 10
0.0
 20
0.0
 30
0.0
  9
$UCSXDIR
 10
1.0
 20
0.0
 30
0.0
  9
$UCSYDIR
 10
0.0
 20
1.0
 30
0.0
  9
$UCSORTHOREF
  2

  9
$UCSORTHOVIEW
 70
     0
  9
$UCSORGTOP
 10
0.0
 20
0.0
 30
0.0
  9
$UCSORGBOTTOM
 10
0.0
 20
0.0
 30
0.0
  9
$UCSORGLEFT
 10
0.0
 20
0.0
 30
0.0
  9
$UCSORGRIGHT
 10
0.0
 20
0.0
 30
0.0
  9
$UCSORGFRONT
 10
0.0
 20
0.0
 30
0.0
  9
$UCSORGBACK
 10
0.0
 20
0.0
 30
0.0
  9
$PUCSBASE
  2

  9
$PUCSNAME
  2

  9
$PUCSORG
 10
0.0
 20
0.0
 30
0.0
  9
$PUCSXDIR
 10
1.0
 20
0.0
 30
0.0
  9
$PUCSYDIR
 10
0.0
 20
1.0
 30
0.0
  9
$PUCSORTHOREF
  2

  9
$PUCSORTHOVIEW
 70
     0
  9
$PUCSORGTOP
 10
0.0
 20
0.0
 30
0.0
  9
$PUCSORGBOTTOM
 10
0.0
 20
0.0
 30
0.0
  9
$PUCSORGLEFT
 10
0.0
 20
0.0
 30
0.0
  9
$PUCSORGRIGHT
 10
0.0
 20
0.0
 30
0.0
  9
$PUCSORGFRONT
 10
0.0
 20
0.0
 30
0.0
  9
$PUCSORGBACK
 10
0.0
 20
0.0
 30
0.0
  9
$USERI1
 70
     0
  9
$USERI2
 70
     0
  9
$USERI3
 70
     0
  9
$USERI4
 70
     0
  9
$USERI5
 70
     0
  9
$USERR1
 40
0.0
  9
$USERR2
 40
0.0
  9
$USERR3
 40
0.0
  9
$USERR4
 40
0.0
  9
$USERR5
 40
0.0
  9
$WORLDVIEW
 70
     1
  9
$SHADEDGE
 70
     3
  9
$SHADEDIF
 70
    70
  9
$TILEMODE
 70
     1
  9
$MAXACTVP
 70
    64
  9
$PINSBASE
 10
0.0
 20
0.0
 30
0.0
  9
$PLIMCHECK
 70
     0
  9
$PEXTMIN
 10
1.0000000000E+20
 20
1.0000000000E+20
 30
1.0000000000E+20
  9
$PEXTMAX
 10
-1.0000000000E+20
 20
-1.0000000000E+20
 30
-1.0000000000E+20
  9
$PLIMMIN
 10
0.0
 20
0.0
  9
$PLIMMAX
 10
420.0
 20
297.0
  9
$UNITMODE
 70
     0
  9
$VISRETAIN
 70
     1
  9
$PLINEGEN
 70
     0
  9
$PSLTSCALE
 70
     1
  9
$TREEDEPTH
 70
  3020
  9
$CMLSTYLE
  2
Standard
  9
$CMLJUST
 70
     0
  9
$CMLSCALE
 40
20.0
  9
$PROXYGRAPHICS
 70
     1
  9
$MEASUREMENT
 70
     1
  9
$CELWEIGHT
370
    -1
  9
$ENDCAPS
280
     0
  9
$JOINSTYLE
280
     0
  9
$LWDISPLAY
290
     1
  9
$INSUNITS
 70
     4
  9
$HYPERLINKBASE
  1

  9
$STYLESHEET
  1

  9
$XEDIT
290
     1
  9
$CEPSNTYPE
380
     0
  9
$PSTYLEMODE
290
     1
  9
$FINGERPRINTGUID
  2
{8c845a90-8a67-4cb4-a8b4-ab1579915c06}
  9
$VERSIONGUID
  2
{FAEB1C32-E019-11D5-929B-00C0DF256EC4}
  9
$EXTNAMES
290
     1
  9
$PSVPSCALE
 40
0.0
  9
$OLESTARTUP
290
     0
  0
ENDSEC
  0
SECTION
  2
CLASSES
  0
CLASS
  1
ACDBDICTIONARYWDFLT
  2
AcDbDictionaryWithDefault
  3
ObjectDBX Classes
 90
        0
280
     0
281
     0
  0
CLASS
  1
VISUALSTYLE
  2
AcDbVisualStyle
  3
ObjectDBX Classes
 90
     4095
280
     0
281
     0
  0
CLASS
  1
MATERIAL
  2
AcDbMaterial
  3
ObjectDBX Classes
 90
     1153
280
     0
281
     0
  0
CLASS
  1
SCALE
  2
AcDbScale
  3
ObjectDBX Classes
 90
     1153
280
     0
281
     0
  0
CLASS
  1
TABLESTYLE
  2
AcDbTableStyle
  3
ObjectDBX Classes
 90
     4095
280
     0
281
     0
  0
CLASS
  1
MLEADERSTYLE
  2
AcDbMLeaderStyle
  3
ACDB_MLEADERSTYLE_CLASS
 90
     4095
280
     0
281
     0
  0
CLASS
  1
SUN
  2
AcDbSun
  3
SCENEOE
 90
     1153
280
     0
281
     0
  0
CLASS
  1
ACDBPLACEHOLDER
  2
AcDbPlaceHolder
  3
ObjectDBX Classes
 90
        0
280
     0
281
     0
  0
CLASS
  1
LAYOUT
  2
AcDbLayout
  3
ObjectDBX Classes
 90
        0
280
     0
281
     0
  0
ENDSEC
  0
SECTION
  2
TABLES
  0
TABLE
  2
VPORT
  5
8
330
0
100
AcDbSymbolTable
 70
     1
  0
VPORT
  5
29
330
8
100
AcDbSymbolTableRecord
100
AcDbViewportTableRecord
  2
*Active
 70
     0
 10
0.0
 20
0.0
 11
1.0
 21
1.0
 12
139.7
 22
107.95
 13
0.0
 23
0.0
 14
10.0
 24
10.0
 15
10.0
 25
10.0
 16
0.0
 26
0.0
 36
1.0
 17
0.0
 27
0.0
 37
0.0
 40
215.9
 41
1.2941176471
 42
50.0
 43
0.0
 44
0.0
 50
0.0
 51
0.0
 71
     0
 72
  2000
 73
     1
 74
     3
 75
     0
 76
     0
 77
     0
 78
     0
281
     0
 65
     1
110
0.0
120
0.0
130
0.0
111
1.0
121
0.0
131
0.0
112
0.0
122
1.0
132
0.0
 79
     0
146
0.0
  0
ENDTAB
  0
TABLE
  2
LTYPE
  5
5
330
0
100
AcDbSymbolTable
 70
     6
  0
LTYPE
  5
14
330
5
100
AcDbSymbolTableRecord
100
AcDbLinetypeTableRecord
  2
ByBlock
 70
     0
  3

 72
    65
 73
     0
 40
0.0
  0
LTYPE
  5
15
330
5
100
AcDbSymbolTableRecord
100
AcDbLinetypeTableRecord
  2
ByLayer
 70
     0
  3

 72
    65
 73
     0
 40
0.0
  0
LTYPE
  5
16
330
5
100
AcDbSymbolTableRecord
100
AcDbLinetypeTableRecord
  2
Continuous
 70
     0
  3
Solid line
 72
    65
 73
     0
 40
0.0
  0
LTYPE
  5
6E
330
5
100
AcDbSymbolTableRecord
100
AcDbLinetypeTableRecord
  2
HIDDEN
 70
     0
  3
Hidden __ __ __ __ __ __ __ __ __ __ __ __ __ __
 72
    65
 73
     2
 40
1.905
 49
1.27
 74
     0
 49
-0.635
 74
     0
  0
LTYPE
  5
6F
330
5
100
AcDbSymbolTableRecord
100
AcDbLinetypeTableRecord
  2
PHANTOM
 70
     0
  3
Phantom ______  __  __  ______  __  __  ______
 72
    65
 73
     6
 40
12.7
 49
6.35
 74
     0
 49
-1.27
 74
     0
 49
1.27
 74
     0
 49
-1.27
 74
     0
 49
1.27
 74
     0
 49
-1.27
 74
     0
  0
LTYPE
  5
70
330
5
100
AcDbSymbolTableRecord
100
AcDbLinetypeTableRecord
  2
CENTER
 70
     0
  3
Center ____ _ ____ _ ____ _ ____ _ ____ _ ____
 72
    65
 73
     4
 40
10.16
 49
6.35
 74
     0
 49
-1.27
 74
     0
 49
1.27
 74
     0
 49
-1.27
 74
     0
  0
LTYPE
  5
71
330
5
100
AcDbSymbolTableRecord
100
AcDbLinetypeTableRecord
  2
CENTERX2
 70
     0
  3
Center (2x) ________  __  ________  __  _____
 72
    65
 73
     4
 40
20.32
 49
12.7
 74
     0
 49
-2.54
 74
     0
 49
2.54
 74
     0
 49
-2.54
 74
     0
  0
LTYPE
  5
72
330
5
100
AcDbSymbolTableRecord
100
AcDbLinetypeTableRecord
  2
DOT2
 70
     0
  3
Dot (.5x) ........................................
 72
    65
 73
     2
 40
0.635
 49
0.0
 74
     0
 49
-0.635
 74
     0
  0
ENDTAB
  0
TABLE
  2
LAYER
  5
2
330
0
100
AcDbSymbolTable
 70
    17
  0
LAYER
  5
10
330
2
100
AcDbSymbolTableRecord
100
AcDbLayerTableRecord
  2
0
 70
     0
 62
     7
  6
Continuous
370
    -3
390
F
  0
LAYER
  5
73
330
2
100
AcDbSymbolTableRecord
100
AcDbLayerTableRecord
  2
FORMAT
 70
     0
 62
     7
  6
Continuous
370
    -3
390
F
  0
LAYER
  5
74
330
2
100
AcDbSymbolTableRecord
100
AcDbLayerTableRecord
  2
YARDIMCI_GEOMETRI
 70
     0
 62
    -6
  6
Continuous
290
     0
370
    -3
390
F
  0
LAYER
  5
75
330
2
100
AcDbSymbolTableRecord
100
AcDbLayerTableRecord
  2
SAYFA_CERCEVESI
 70
     0
 62
     7
  6
Continuous
370
    25
390
F
  0
LAYER
  5
76
330
2
100
AcDbSymbolTableRecord
100
AcDbLayerTableRecord
  2
ANTET
 70
     0
 62
     7
  6
Continuous
370
    -3
390
F
  0
LAYER
  5
77
330
2
100
AcDbSymbolTableRecord
100
AcDbLayerTableRecord
  2
OLCU
 70
     0
 62
   150
  6
Continuous
370
    -3
390
F
  0
LAYER
  5
78
330
2
100
AcDbSymbolTableRecord
100
AcDbLayerTableRecord
  2
METIN
 70
     0
 62
    96
  6
Continuous
370
    -3
390
F
  0
LAYER
  5
79
330
2
100
AcDbSymbolTableRecord
100
AcDbLayerTableRecord
  2
BALON
 70
     0
 62
     5
  6
Continuous
370
    -3
390
F
  0
LAYER
  5
7A
330
2
100
AcDbSymbolTableRecord
100
AcDbLayerTableRecord
  2
VURGU
 70
     0
 62
     7
  6
Continuous
370
    -3
390
F
  0
LAYER
  5
7B
330
2
100
AcDbSymbolTableRecord
100
AcDbLayerTableRecord
  2
SILIK
 70
     0
 62
     7
  6
Continuous
370
    -3
390
F
  0
LAYER
  5
7C
330
2
100
AcDbSymbolTableRecord
100
AcDbLayerTableRecord
  2
MODEL
 70
     0
 62
     7
  6
Continuous
370
    -3
390
F
  0
LAYER
  5
7D
330
2
100
AcDbSymbolTableRecord
100
AcDbLayerTableRecord
  2
DETAYLANDıRMA
 70
     0
 62
   190
  6
Continuous
370
    -3
390
F
  0
LAYER
  5
7E
330
2
100
AcDbSymbolTableRecord
100
AcDbLayerTableRecord
  2
TOLERANS
 70
     0
 62
   230
  6
Continuous
370
    -3
390
F
  0
LAYER
  5
7F
330
2
100
AcDbSymbolTableRecord
100
AcDbLayerTableRecord
  2
MERKEZ_CIZGILERI
 70
     0
 62
    30
  6
Continuous
370
    -3
390
F
  0
LAYER
  5
80
330
2
100
AcDbSymbolTableRecord
100
AcDbLayerTableRecord
  2
KESIT-DETAY_CIZGILERI
 70
     0
 62
     7
  6
Continuous
370
    -3
390
F
  0
LAYER
  5
81
330
2
100
AcDbSymbolTableRecord
100
AcDbLayerTableRecord
  2
\U+041E\U+0421\U+0415\U+0412\U+042B\U+0415
 70
     0
 62
     7
  6
Continuous
370
    -3
390
F
  0
LAYER
  5
82
330
2
100
AcDbSymbolTableRecord
100
AcDbLayerTableRecord
  2
\U+0412\U+041E\U+0414\U+042F\U+041D\U+042B\U+0415_\U+0417\U+041D\U+0410\U+041A\U+0418
 70
     0
 62
    11
  6
Continuous
370
    -3
390
F
  0
ENDTAB
  0
TABLE
  2
STYLE
  5
3
330
0
100
AcDbSymbolTable
 70
     1
  0
STYLE
  5
11
330
3
100
AcDbSymbolTableRecord
100
AcDbTextStyleTableRecord
  2
Standard
 70
     0
 40
0.0
 41
1.0
 50
0.0
 71
     0
 42
3.5
  3
txt
  4

  0
ENDTAB
  0
TABLE
  2
VIEW
  5
6
330
0
100
AcDbSymbolTable
 70
     0
  0
ENDTAB
  0
TABLE
  2
UCS
  5
7
330
0
100
AcDbSymbolTable
 70
     0
  0
ENDTAB
  0
TABLE
  2
APPID
  5
9
330
0
100
AcDbSymbolTable
 70
     1
  0
APPID
  5
12
330
9
100
AcDbSymbolTableRecord
100
AcDbRegAppTableRecord
  2
ACAD
 70
     0
  0
ENDTAB
  0
TABLE
  2
DIMSTYLE
  5
A
330
0
100
AcDbSymbolTable
 70
     1
100
AcDbDimStyleTable
  0
DIMSTYLE
105
27
330
A
100
AcDbSymbolTableRecord
100
AcDbDimStyleTableRecord
  2
ISO-25
 70
     0
 41
2.5
 42
0.625
 43
3.75
 44
1.25
 73
     0
 74
     0
 77
     1
 78
     8
140
2.5
141
2.5
143
0.0393700787
147
0.625
171
     3
172
     1
178
     0
271
     2
272
     2
274
     3
278
    44
283
     0
284
     8
340
11
  0
ENDTAB
  0
TABLE
  2
BLOCK_RECORD
  5
1
330
0
100
AcDbSymbolTable
 70
     2
  0
BLOCK_RECORD
  5
1F
330
1
100
AcDbSymbolTableRecord
100
AcDbBlockTableRecord
  2
*Model_Space
340
22
  0
BLOCK_RECORD
  5
1B
330
1
100
AcDbSymbolTableRecord
100
AcDbBlockTableRecord
  2
*Paper_Space
340
1E
  0
BLOCK_RECORD
  5
23
330
1
100
AcDbSymbolTableRecord
100
AcDbBlockTableRecord
  2
*Paper_Space0
340
26
  0
BLOCK_RECORD
  5
A2
330
1
100
AcDbSymbolTableRecord
100
AcDbBlockTableRecord
  2
SW_CENTERMARKSYMBOL_0
340
0
102
{BLKREFS
331
AD
102
}
  0
ENDTAB
  0
ENDSEC
  0
SECTION
  2
BLOCKS
  0
BLOCK
  5
20
330
1F
100
AcDbEntity
  8
0
100
AcDbBlockBegin
  2
*Model_Space
 70
     0
 10
0.0
 20
0.0
 30
0.0
  3
*Model_Space
  1

  0
ENDBLK
  5
21
330
1F
100
AcDbEntity
  8
0
100
AcDbBlockEnd
  0
BLOCK
  5
1C
330
1B
100
AcDbEntity
 67
     1
  8
0
100
AcDbBlockBegin
  2
*Paper_Space
 70
     0
 10
0.0
 20
0.0
 30
0.0
  3
*Paper_Space
  1

  0
ENDBLK
  5
1D
330
1B
100
AcDbEntity
 67
     1
  8
0
100
AcDbBlockEnd
  0
BLOCK
  5
24
330
23
100
AcDbEntity
  8
0
100
AcDbBlockBegin
  2
*Paper_Space0
 70
     0
 10
0.0
 20
0.0
 30
0.0
  3
*Paper_Space0
  1

  0
ENDBLK
  5
25
330
23
100
AcDbEntity
  8
0
100
AcDbBlockEnd
  0
BLOCK
  5
A3
330
A2
100
AcDbEntity
  8
0
100
AcDbBlockBegin
  2
SW_CENTERMARKSYMBOL_0
 70
     0
 10
0.0
 20
0.0
 30
0.0
  3
SW_CENTERMARKSYMBOL_0
  1

  0
LINE
  5
A5
330
A2
100
AcDbEntity
  8
FORMAT
 62
     0
100
AcDbLine
 10
0.0
 20
0.0
 30
0.0
 11
0.0
 21
2.5
 31
0.0
  0
LINE
  5
A6
330
A2
100
AcDbEntity
  8
FORMAT
 62
     0
100
AcDbLine
 10
0.0
 20
0.0
 30
0.0
 11
-2.5
 21
0.0
 31
0.0
  0
LINE
  5
A7
330
A2
100
AcDbEntity
  8
FORMAT
 62
     0
100
AcDbLine
 10
0.0
 20
0.0
 30
0.0
 11
0.0
 21
-2.5
 31
0.0
  0
LINE
  5
A8
330
A2
100
AcDbEntity
  8
FORMAT
 62
     0
100
AcDbLine
 10
0.0
 20
0.0
 30
0.0
 11
2.5
 21
0.0
 31
0.0
  0
LINE
  5
A9
330
A2
100
AcDbEntity
  8
FORMAT
 62
     0
100
AcDbLine
 10
0.0
 20
5.0
 30
0.0
 11
0.0
 21
47.5
 31
0.0
  0
LINE
  5
AA
330
A2
100
AcDbEntity
  8
FORMAT
 62
     0
100
AcDbLine
 10
-5.0
 20
0.0
 30
0.0
 11
-47.5
 21
0.0
 31
0.0
  0
LINE
  5
AB
330
A2
100
AcDbEntity
  8
FORMAT
 62
     0
100
AcDbLine
 10
0.0
 20
-5.0
 30
0.0
 11
0.0
 21
-47.5
 31
0.0
  0
LINE
  5
AC
330
A2
100
AcDbEntity
  8
FORMAT
 62
     0
100
AcDbLine
 10
5.0
 20
0.0
 30
0.0
 11
47.5
 21
0.0
 31
0.0
  0
ENDBLK
  5
A4
330
A2
100
AcDbEntity
  8
0
100
AcDbBlockEnd
  0
ENDSEC
  0
SECTION
  2
ENTITIES
  0
LINE
  5
83
330
1F
100
AcDbEntity
  8
0
  6
Continuous
 62
     7
370
    25
100
AcDbLine
 10
137.8123541918
 20
241.2396405906
 30
0.0
 11
71.7628782575
 21
126.8385924591
 31
0.0
  0
LINE
  5
84
330
1F
100
AcDbEntity
  8
0
  6
Continuous
 62
     7
370
    25
100
AcDbLine
 10
161.7628782575
 20
102.7231651403
 30
0.0
 11
215.7546405324
 21
196.2396405906
 31
0.0
  0
LINE
  5
85
330
1F
100
AcDbEntity
  8
0
  6
Continuous
 62
     7
370
    25
100
AcDbLine
 10
71.7628782575
 20
126.8385924591
 30
0.0
 11
71.7628782575
 21
-5.2603594094
 31
0.0
  0
LINE
  5
86
330
1F
100
AcDbEntity
  8
0
  6
Continuous
 62
     7
370
    25
100
AcDbLine
 10
161.7628782575
 20
-5.2603594094
 30
0.0
 11
161.7628782575
 21
102.7231651403
 31
0.0
  0
LINE
  5
87
330
1F
100
AcDbEntity
  8
0
  6
Continuous
 62
     7
370
    25
100
AcDbLine
 10
176.7834973621
 20
218.7396405906
 30
0.0
 11
215.7546405324
 21
196.2396405906
 31
0.0
  0
LINE
  5
88
330
1F
100
AcDbEntity
  8
0
  6
Continuous
 62
     7
370
    25
100
AcDbLine
 10
137.8123541918
 20
241.2396405906
 30
0.0
 11
176.7834973621
 21
218.7396405906
 31
0.0
  0
LINE
  5
89
330
1F
100
AcDbEntity
  8
0
  6
Continuous
 62
     7
370
    25
100
AcDbLine
 10
161.7628782575
 20
102.7231651403
 30
0.0
 11
71.7628782575
 21
126.8385924591
 31
0.0
  0
LINE
  5
8A
330
1F
100
AcDbEntity
  8
0
  6
Continuous
 62
     7
370
    25
100
AcDbLine
 10
116.7628782575
 20
-5.2603594094
 30
0.0
 11
161.7628782575
 21
-5.2603594094
 31
0.0
  0
LINE
  5
8B
330
1F
100
AcDbEntity
  8
0
  6
Continuous
 62
     7
370
    25
100
AcDbLine
 10
71.7628782575
 20
-5.2603594094
 30
0.0
 11
116.7628782575
 21
-5.2603594094
 31
0.0
  0
LINE
  5
8C
330
1F
100
AcDbEntity
  8
0
  6
Continuous
 62
     7
370
    25
100
AcDbLine
 10
-116.8541218454
 20
218.7396405906
 30
0.0
 11
-116.8541218454
 21
114.7808787997
 31
0.0
  0
LINE
  5
8D
330
1F
100
AcDbEntity
  8
0
  6
Continuous
 62
     7
370
    25
100
AcDbLine
 10
-26.8541218454
 20
114.7808787997
 30
0.0
 11
-26.8541218454
 21
218.7396405906
 31
0.0
  0
LINE
  5
8E
330
1F
100
AcDbEntity
  8
0
  6
Continuous
 62
     7
370
    25
100
AcDbLine
 10
-116.8541218454
 20
114.7808787997
 30
0.0
 11
-116.8541218454
 21
-5.2603594094
 31
0.0
  0
LINE
  5
8F
330
1F
100
AcDbEntity
  8
0
  6
Continuous
 62
     7
370
    25
100
AcDbLine
 10
-26.8541218454
 20
-5.2603594094
 30
0.0
 11
-26.8541218454
 21
114.7808787997
 31
0.0
  0
LWPOLYLINE
  5
90
330
1F
100
AcDbEntity
  8
0
  6
Continuous
 62
     7
370
    25
100
AcDbPolyline
 90
       94
 70
   128
 43
0.0
 10
-116.8541218454
 20
218.7396405906
 10
-116.751459506
 20
217.2206712863
 10
-116.4439409125
 20
215.7086326905
 10
-115.9329692017
 20
214.2104238886
 10
-115.2208758204
 20
212.7328808637
 10
-114.3109098873
 20
211.2827453057
 10
-113.2072233683
 20
209.8666338505
 10
-111.9148521318
 20
208.49100789
 10
-110.4396929713
 20
207.1621440899
 10
-108.7884766997
 20
205.886105751
 10
-106.9687374382
 20
204.6687151433
 10
-104.9887782397
 20
203.5155269412
 10
-102.8576332038
 20
202.4318028779
 10
-100.5850262565
 20
201.4224877377
 10
-98.1813267822
 20
200.4921867941
 10
-95.6575023101
 20
199.645144797
 10
-93.0250684725
 20
198.8852266046
 10
-90.2960364612
 20
198.2158995494
 10
-87.4828582234
 20
197.6402176173
 10
-84.5983696461
 20
197.1608075128
 10
-81.6557319891
 20
196.7798566743
 10
-78.6683718331
 20
196.4991032932
 10
-75.6499198173
 20
196.3198283826
 10
-72.614148446
 20
196.242849933
 10
-69.5749092476
 20
196.2685191792
 10
-66.5460695736
 20
196.3967189985
 10
-63.5414493246
 20
196.6268644444
 10
-60.5747578937
 20
196.9579054161
 10
-57.6595316135
 20
197.3883314495
 10
-54.8090719929
 20
197.9161786094
 10
-52.0363850253
 20
198.5390384502
 10
-49.3541218454
 20
199.2540690054
 10
-46.7745210049
 20
200.0580077546
 10
-44.3093526307
 20
200.9471865095
 10
-41.9698647209
 20
201.9175481515
 10
-39.766731822
 20
202.964665143
 10
-37.7100063242
 20
204.0837597293
 10
-35.8090725943
 20
205.2697257386
 10
-34.0726041567
 20
206.5171518798
 10
-32.5085241189
 20
207.8203464336
 10
-31.1239690191
 20
209.1733632223
 10
-29.9252562648
 20
210.5700287404
 10
-28.9178553074
 20
212.0039703237
 10
-28.1063626863
 20
213.4686452255
 10
-27.4944810562
 20
214.9573704701
 10
-27.0850022927
 20
216.4633533459
 10
-26.8797947535
 20
217.9797223982
 10
-26.8797947535
 20
219.499558783
 10
-27.0850022927
 20
221.0159278353
 10
-27.4944810562
 20
222.521910711
 10
-28.1063626863
 20
224.0106359557
 10
-28.9178553074
 20
225.4753108575
 10
-29.9252562648
 20
226.9092524407
 10
-31.1239690191
 20
228.3059179589
 10
-32.5085241189
 20
229.6589347475
 10
-34.0726041567
 20
230.9621293014
 10
-35.8090725943
 20
232.2095554426
 10
-37.7100063242
 20
233.3955214518
 10
-39.766731822
 20
234.5146160382
 10
-41.9698647209
 20
235.5617330297
 10
-44.3093526307
 20
236.5320946717
 10
-46.7745210049
 20
237.4212734266
 10
-49.3541218454
 20
238.2252121757
 10
-52.0363850253
 20
238.9402427309
 10
-54.8090719929
 20
239.5631025718
 10
-57.6595316135
 20
240.0909497317
 10
-60.5747578937
 20
240.5213757651
 10
-63.5414493246
 20
240.8524167368
 10
-66.5460695736
 20
241.0825621827
 10
-69.5749092476
 20
241.2107620019
 10
-72.614148446
 20
241.2364312482
 10
-75.6499198173
 20
241.1594527985
 10
-78.6683718331
 20
240.980177888
 10
-81.6557319891
 20
240.6994245068
 10
-84.5983696461
 20
240.3184736684
 10
-87.4828582234
 20
239.8390635639
 10
-90.2960364612
 20
239.2633816318
 10
-93.0250684725
 20
238.5940545766
 10
-95.6575023101
 20
237.8341363842
 10
-98.1813267822
 20
236.987094387
 10
-100.5850262565
 20
236.0567934434
 10
-102.8576332038
 20
235.0474783032
 10
-104.9887782397
 20
233.9637542399
 10
-106.9687374382
 20
232.8105660378
 10
-108.7884766997
 20
231.5931754302
 10
-110.4396929713
 20
230.3171370912
 10
-111.9148521318
 20
228.9882732911
 10
-113.2072233683
 20
227.6126473306
 10
-114.3109098873
 20
226.1965358755
 10
-115.2208758204
 20
224.7464003175
 10
-115.9329692017
 20
223.2688572926
 10
-116.4439409125
 20
221.7706484907
 10
-116.751459506
 20
220.2586098949
 10
-116.8541218454
 20
218.7396405906
  0
ELLIPSE
  5
91
330
1F
100
AcDbEntity
  8
0
  6
Continuous
 62
     7
370
    25
100
AcDbEllipse
 10
-71.8541218454
 20
114.7808787997
 30
0.0
 11
44.99999999999999
 21
0.0
 31
0.0
210
0.0
220
0.0
230
1.0
 40
0.2679491924
 41
3.141592653589849
 42
6.283185307179586
  0
LWPOLYLINE
  5
92
330
1F
100
AcDbEntity
  8
0
  6
Continuous
 62
     7
370
    25
100
AcDbPolyline
 90
       85
 70
   128
 43
0.0
 10
-108.6541218454
 20
218.7396405906
 10
-108.5512215816
 20
220.1146743126
 10
-108.2430962505
 20
221.4820182882
 10
-107.7314690137
 20
222.8340257754
 10
-107.0192010983
 20
224.1631357997
 10
-106.1102757955
 20
225.4619154389
 10
-105.0097761842
 20
226.7231013903
 10
-103.7238567046
 20
227.9396405906
 10
-102.2597087402
 20
229.104729659
 10
-100.6255204002
 20
230.2118529448
 10
-98.8304307287
 20
231.2548189656
 10
-96.8844785953
 20
232.2277950323
 10
-94.7985465538
 20
233.125339868
 10
-92.5842999821
 20
233.942434038
 10
-90.2541218454
 20
234.6745080202
 10
-87.8210434449
 20
235.31746776
 10
-85.2986715421
 20
235.8677175656
 10
-82.7011122637
 20
236.322180217
 10
-80.042892215
 20
236.6783141747
 10
-77.3388772407
 20
236.9341277931
 10
-74.6041892894
 20
237.0881904587
 10
-71.8541218454
 20
237.1396405906
 10
-69.1040544014
 20
237.0881904587
 10
-66.3693664501
 20
236.9341277931
 10
-63.6653514758
 20
236.6783141747
 10
-61.0071314271
 20
236.322180217
 10
-58.4095721487
 20
235.8677175656
 10
-55.8872002459
 20
235.31746776
 10
-53.4541218454
 20
234.6745080202
 10
-51.1239437086
 20
233.942434038
 10
-48.909697137
 20
233.125339868
 10
-46.8237650954
 20
232.2277950323
 10
-44.877812962
 20
231.2548189656
 10
-43.0827232906
 20
230.2118529448
 10
-41.4485349505
 20
229.104729659
 10
-39.9843869861
 20
227.9396405906
 10
-38.6984675066
 20
226.7231013903
 10
-37.5979678953
 20
225.4619154389
 10
-36.6890425924
 20
224.1631357997
 10
-35.9767746771
 20
222.8340257754
 10
-35.4651474403
 20
221.4820182882
 10
-35.1570221091
 20
220.1146743126
 10
-35.0541218454
 20
218.7396405906
 10
-35.1570221091
 20
217.3646068686
 10
-35.4651474403
 20
215.9972628929
 10
-35.9767746771
 20
214.6452554058
 10
-36.6890425924
 20
213.3161453814
 10
-37.5979678953
 20
212.0173657422
 10
-38.6984675066
 20
210.7561797908
 10
-39.9843869861
 20
209.5396405906
 10
-41.4485349505
 20
208.3745515222
 10
-43.0827232906
 20
207.2674282364
 10
-44.877812962
 20
206.2244622156
 10
-46.8237650954
 20
205.2514861489
 10
-48.909697137
 20
204.3539413132
 10
-51.1239437086
 20
203.5368471432
 10
-53.4541218454
 20
202.804773161
 10
-55.8872002459
 20
202.1618134212
 10
-58.4095721487
 20
201.6115636155
 10
-61.0071314271
 20
201.1571009641
 10
-63.6653514758
 20
200.8009670064
 10
-66.3693664501
 20
200.545153388
 10
-69.1040544014
 20
200.3910907225
 10
-71.8541218454
 20
200.3396405906
 10
-74.6041892894
 20
200.3910907225
 10
-77.3388772407
 20
200.545153388
 10
-80.042892215
 20
200.8009670064
 10
-82.7011122637
 20
201.1571009641
 10
-85.2986715421
 20
201.6115636155
 10
-87.8210434449
 20
202.1618134212
 10
-90.2541218454
 20
202.804773161
 10
-92.5842999821
 20
203.5368471432
 10
-94.7985465538
 20
204.3539413132
 10
-96.8844785953
 20
205.2514861489
 10
-98.8304307287
 20
206.2244622156
 10
-100.6255204002
 20
207.2674282364
 10
-102.2597087402
 20
208.3745515222
 10
-103.7238567046
 20
209.5396405906
 10
-105.0097761842
 20
210.7561797908
 10
-106.1102757955
 20
212.0173657422
 10
-107.0192010983
 20
213.3161453814
 10
-107.7314690137
 20
214.6452554058
 10
-108.2430962505
 20
215.9972628929
 10
-108.5512215816
 20
217.3646068686
 10
-108.6541218454
 20
218.7396405906
  0
LINE
  5
93
330
1F
100
AcDbEntity
  8
0
  6
Continuous
 62
     7
370
    25
100
AcDbLine
 10
-116.8541218454
 20
-5.2603594094
 30
0.0
 11
-26.8541218454
 21
-5.2603594094
 31
0.0
  0
LINE
  5
94
330
1F
100
AcDbEntity
  8
0
  6
Continuous
 62
     7
370
    25
100
AcDbLine
 10
286.5127782934
 20
218.7396405906
 30
0.0
 11
286.5127782934
 21
114.7808787997
 31
0.0
  0
LINE
  5
95
330
1F
100
AcDbEntity
  8
0
  6
Continuous
 62
     7
370
    25
100
AcDbLine
 10
376.5127782934
 20
114.7808787997
 30
0.0
 11
376.5127782934
 21
218.7396405906
 31
0.0
  0
LINE
  5
96
330
1F
100
AcDbEntity
  8
0
  6
Continuous
 62
     7
370
    25
100
AcDbLine
 10
286.5127782934
 20
114.7808787997
 30
0.0
 11
286.5127782934
 21
-5.2603594094
 31
0.0
  0
LINE
  5
97
330
1F
100
AcDbEntity
  8
0
  6
Continuous
 62
     7
370
    25
100
AcDbLine
 10
376.5127782934
 20
-5.2603594094
 30
0.0
 11
376.5127782934
 21
114.7808787997
 31
0.0
  0
LWPOLYLINE
  5
98
330
1F
100
AcDbEntity
  8
0
  6
Continuous
 62
     7
370
    25
100
AcDbPolyline
 90
       49
 70
   128
 43
0.0
 10
286.5127782934
 20
218.7396405906
 10
286.5384512015
 20
219.499558783
 10
286.7436587407
 20
221.0159278353
 10
287.1531375042
 20
222.521910711
 10
287.7650191343
 20
224.0106359557
 10
288.5765117554
 20
225.4753108575
 10
289.5839127128
 20
226.9092524407
 10
290.7826254671
 20
228.3059179589
 10
292.1671805669
 20
229.6589347475
 10
293.7312606047
 20
230.9621293014
 10
295.4677290422
 20
232.2095554426
 10
297.3686627722
 20
233.3955214518
 10
299.42538827
 20
234.5146160382
 10
301.6285211688
 20
235.5617330297
 10
303.9680090787
 20
236.5320946717
 10
306.4331774529
 20
237.4212734266
 10
309.0127782934
 20
238.2252121757
 10
311.6950414733
 20
238.9402427309
 10
314.4677284409
 20
239.5631025718
 10
317.3181880615
 20
240.0909497317
 10
320.2334143417
 20
240.5213757651
 10
323.2001057726
 20
240.8524167368
 10
326.2047260216
 20
241.0825621827
 10
329.2335656956
 20
241.2107620019
 10
332.272804894
 20
241.2364312482
 10
335.3085762653
 20
241.1594527985
 10
338.3270282811
 20
240.980177888
 10
341.3143884371
 20
240.6994245068
 10
344.2570260941
 20
240.3184736684
 10
347.1415146714
 20
239.8390635639
 10
349.9546929092
 20
239.2633816318
 10
352.6837249205
 20
238.5940545766
 10
355.3161587581
 20
237.8341363842
 10
357.8399832302
 20
236.987094387
 10
360.2436827045
 20
236.0567934434
 10
362.5162896518
 20
235.0474783032
 10
364.6474346877
 20
233.9637542399
 10
366.6273938862
 20
232.8105660378
 10
368.4471331477
 20
231.5931754302
 10
370.0983494192
 20
230.3171370912
 10
371.5735085797
 20
228.9882732911
 10
372.8658798163
 20
227.6126473306
 10
373.9695663353
 20
226.1965358755
 10
374.8795322684
 20
224.7464003175
 10
375.5916256497
 20
223.2688572926
 10
376.1025973605
 20
221.7706484907
 10
376.410115954
 20
220.2586098949
 10
376.5127782934
 20
218.7396405906
 10
376.5127782934
 20
218.7396405906
  0
ELLIPSE
  5
99
330
1F
100
AcDbEntity
  8
0
  6
Continuous
 62
     7
370
    25
100
AcDbEllipse
 10
331.5127782934
 20
114.7808787997
 30
0.0
 11
45.00000000000006
 21
0.0
 31
0.0
210
0.0
220
0.0
230
1.0
 40
0.2679491924
 41
1.570796326794897
 42
3.141592653589849
  0
ELLIPSE
  5
9A
330
1F
100
AcDbEntity
  8
0
  6
Continuous
 62
     7
370
    25
100
AcDbEllipse
 10
331.5127782934
 20
114.7808787997
 30
0.0
 11
45.00000000000006
 21
0.0
 31
0.0
210
0.0
220
0.0
230
1.0
 40
0.2679491924
 41
0.0
 42
1.570796326794918
  0
LINE
  5
9B
330
1F
100
AcDbEntity
  8
0
  6
Continuous
 62
     7
370
    25
100
AcDbLine
 10
286.5127782934
 20
-5.2603594094
 30
0.0
 11
376.5127782934
 21
-5.2603594094
 31
0.0
  0
LINE
  5
9C
330
1F
100
AcDbEntity
  8
0
  6
Continuous
 62
     7
370
    25
100
AcDbLine
 10
176.7834973621
 20
394.5940413952
 30
0.0
 11
116.7628782575
 21
394.5940413952
 31
0.0
  0
LINE
  5
9D
330
1F
100
AcDbEntity
  8
0
  6
Continuous
 62
     7
370
    25
100
AcDbLine
 10
116.7628782575
 20
304.5940413952
 30
0.0
 11
176.7834973621
 21
304.5940413952
 31
0.0
  0
CIRCLE
  5
9E
330
1F
100
AcDbEntity
  8
0
  6
Continuous
 62
     7
370
    25
100
AcDbCircle
 10
116.7628782575
 20
349.5940413952
 30
0.0
 40
44.99999999999994
  0
CIRCLE
  5
9F
330
1F
100
AcDbEntity
  8
0
  6
Continuous
 62
     7
370
    25
100
AcDbCircle
 10
116.7628782575
 20
349.5940413952
 30
0.0
 40
36.80000000000001
  0
LWPOLYLINE
  5
A0
330
1F
100
AcDbEntity
  8
0
  6
Continuous
 62
     7
370
    25
100
AcDbPolyline
 90
       48
 70
   128
 43
0.0
 10
176.7834973621
 20
394.5940413952
 10
179.4144293723
 20
394.4913790558
 10
182.0333570432
 20
394.1838604623
 10
184.6283308085
 20
393.6728887516
 10
187.187510398
 20
392.9607953703
 10
189.6992188623
 20
392.0508294372
 10
192.1519958518
 20
390.9471429181
 10
194.5346499076
 20
389.6547716816
 10
196.8363095257
 20
388.1796125211
 10
199.0464727612
 20
386.5283962495
 10
201.1550551462
 20
384.7086569881
 10
203.152435703
 20
382.7286977895
 10
205.029500842
 20
380.5975527536
 10
206.7776859457
 20
378.3249458064
 10
208.3890144463
 20
375.921246332
 10
209.8561342216
 20
373.3974218599
 10
211.1723511404
 20
370.7649880223
 10
212.3316596068
 20
368.0359560111
 10
213.3287699623
 20
365.2227777732
 10
214.1591326209
 20
362.3382891959
 10
214.8189588283
 20
359.3956515389
 10
215.3052379488
 20
356.4082913829
 10
215.6157512024
 20
353.3898393671
 10
215.7490817883
 20
350.3540679958
 10
215.7046213496
 20
347.3148287975
 10
215.4825727491
 20
344.2859891234
 10
215.0839491437
 20
341.2813688744
 10
214.5105693613
 20
338.3146774436
 10
213.7650496026
 20
335.3994511634
 10
212.850791503
 20
332.5489915427
 10
211.7719666127
 20
329.7763045751
 10
210.5334973621
 20
327.0940413952
 10
209.1410346025
 20
324.5144405547
 10
207.6009318219
 20
322.0492721806
 10
205.9202161562
 20
319.7097842707
 10
204.1065563255
 20
317.5066513718
 10
202.1682276435
 20
315.449925874
 10
200.1140742595
 20
313.5489921441
 10
197.9534688042
 20
311.8125237066
 10
195.6962696247
 20
310.2484436687
 10
193.3527758033
 20
308.8638885689
 10
190.9336801647
 20
307.6651758147
 10
188.4500204874
 20
306.6577748572
 10
185.913129141
 20
305.8462822361
 10
183.3345813787
 20
305.234400606
 10
180.7261425226
 20
304.8249218426
 10
178.0997142809
 20
304.6197143034
 10
176.7834973621
 20
304.5940413952
  0
ARC
  5
A1
330
1F
100
AcDbEntity
  8
0
  6
Continuous
 62
     7
370
    25
100
AcDbCircle
 10
186.5804105611
 20
349.5940413952
 30
0.0
 40
41.68180117914613
100
AcDbArc
 50
154.5997993614
 51
205.4002006386
  0
INSERT
  5
AD
330
1F
100
AcDbEntity
  8
FORMAT
 62
     7
100
AcDbBlockReference
  2
SW_CENTERMARKSYMBOL_0
 10
116.7628782575
 20
349.5940413952
 30
0.0
  0
LINE
  5
AE
330
1F
100
AcDbEntity
  8
0
  6
Continuous
 62
     7
370
    25
100
AcDbLine
 10
176.7834973621
 20
-100.5447740726
 30
0.0
 11
116.7628782575
 21
-100.5447740726
 31
0.0
  0
LINE
  5
AF
330
1F
100
AcDbEntity
  8
0
  6
Continuous
 62
     7
370
    25
100
AcDbLine
 10
116.7628782575
 20
-190.5447740726
 30
0.0
 11
176.7834973621
 21
-190.5447740726
 31
0.0
  0
LWPOLYLINE
  5
B0
330
1F
100
AcDbEntity
  8
0
  6
Continuous
 62
     7
370
    25
100
AcDbPolyline
 90
       94
 70
   128
 43
0.0
 10
176.7834973621
 20
-190.5447740726
 10
179.4144293723
 20
-190.4421117332
 10
182.0333570432
 20
-190.1345931397
 10
184.6283308085
 20
-189.623621429
 10
187.187510398
 20
-188.9115280476
 10
189.6992188623
 20
-188.0015621145
 10
192.1519958518
 20
-186.8978755955
 10
194.5346499076
 20
-185.605504359
 10
196.8363095257
 20
-184.1303451985
 10
199.0464727612
 20
-182.4791289269
 10
201.1550551462
 20
-180.6593896654
 10
203.152435703
 20
-178.6794304669
 10
205.029500842
 20
-176.548285431
 10
206.7776859457
 20
-174.2756784837
 10
208.3890144463
 20
-171.8719790094
 10
209.8561342216
 20
-169.3481545373
 10
211.1723511404
 20
-166.7157206997
 10
212.3316596068
 20
-163.9866886884
 10
213.3287699623
 20
-161.1735104506
 10
214.1591326209
 20
-158.2890218733
 10
214.8189588283
 20
-155.3463842163
 10
215.3052379488
 20
-152.3590240603
 10
215.6157512024
 20
-149.3405720445
 10
215.7490817883
 20
-146.3048006732
 10
215.7046213496
 20
-143.2655614749
 10
215.4825727491
 20
-140.2367218008
 10
215.0839491437
 20
-137.2321015518
 10
214.5105693613
 20
-134.265410121
 10
213.7650496026
 20
-131.3501838408
 10
212.850791503
 20
-128.4997242201
 10
211.7719666127
 20
-125.7270372525
 10
210.5334973621
 20
-123.0447740726
 10
209.1410346025
 20
-120.4651732321
 10
207.6009318219
 20
-118.000004858
 10
205.9202161562
 20
-115.6605169481
 10
204.1065563255
 20
-113.4573840492
 10
202.1682276435
 20
-111.4006585514
 10
200.1140742595
 20
-109.4997248215
 10
197.9534688042
 20
-107.763256384
 10
195.6962696247
 20
-106.1991763461
 10
193.3527758033
 20
-104.8146212463
 10
190.9336801647
 20
-103.615908492
 10
188.4500204874
 20
-102.6085075346
 10
185.913129141
 20
-101.7970149135
 10
183.3345813787
 20
-101.1851332834
 10
180.7261425226
 20
-100.77565452
 10
178.0997142809
 20
-100.5704469808
 10
175.4672804433
 20
-100.5704469808
 10
172.8408522016
 20
-100.77565452
 10
170.2324133455
 20
-101.1851332834
 10
167.6538655833
 20
-101.7970149135
 10
165.1169742368
 20
-102.6085075346
 10
162.6333145595
 20
-103.615908492
 10
160.2142189209
 20
-104.8146212463
 10
157.8707250995
 20
-106.1991763461
 10
155.61352592
 20
-107.763256384
 10
153.4529204648
 20
-109.4997248215
 10
151.3987670807
 20
-111.4006585514
 10
149.4604383988
 20
-113.4573840492
 10
147.646778568
 20
-115.6605169481
 10
145.9660629023
 20
-118.000004858
 10
144.4259601218
 20
-120.4651732321
 10
143.0334973621
 20
-123.0447740726
 10
141.7950281116
 20
-125.7270372525
 10
140.7162032212
 20
-128.4997242201
 10
139.8019451217
 20
-131.3501838408
 10
139.0564253629
 20
-134.265410121
 10
138.4830455805
 20
-137.2321015518
 10
138.0844219751
 20
-140.2367218008
 10
137.8623733746
 20
-143.2655614749
 10
137.8179129359
 20
-146.3048006732
 10
137.9512435218
 20
-149.3405720445
 10
138.2617567754
 20
-152.3590240603
 10
138.748035896
 20
-155.3463842163
 10
139.4078621034
 20
-158.2890218733
 10
140.238224762
 20
-161.1735104506
 10
141.2353351174
 20
-163.9866886884
 10
142.3946435838
 20
-166.7157206997
 10
143.7108605026
 20
-169.3481545373
 10
145.1779802779
 20
-171.8719790094
 10
146.7893087785
 20
-174.2756784837
 10
148.5374938822
 20
-176.548285431
 10
150.4145590213
 20
-178.6794304669
 10
152.411939578
 20
-180.6593896654
 10
154.520521963
 20
-182.4791289269
 10
156.7306851985
 20
-184.1303451985
 10
159.0323448167
 20
-185.605504359
 10
161.4149988724
 20
-186.8978755955
 10
163.8677758619
 20
-188.0015621145
 10
166.3794843262
 20
-188.9115280476
 10
168.9386639158
 20
-189.623621429
 10
171.533637681
 20
-190.1345931397
 10
174.1525653519
 20
-190.4421117332
 10
176.7834973621
 20
-190.5447740726
  0
ARC
  5
B1
330
1F
100
AcDbEntity
  8
0
  6
Continuous
 62
     7
370
    25
100
AcDbCircle
 10
116.7628782575
 20
-145.5447740726
 30
0.0
 40
45.0
100
AcDbArc
 50
90.0
 51
180.0
  0
ARC
  5
B2
330
1F
100
AcDbEntity
  8
0
  6
Continuous
 62
     7
370
    25
100
AcDbCircle
 10
116.7628782575
 20
-145.5447740726
 30
0.0
 40
44.99999999999999
100
AcDbArc
 50
180.0
 51
270.0
  0
LWPOLYLINE
  5
B3
330
1F
100
AcDbEntity
  8
0
  6
Continuous
 62
     7
370
    25
100
AcDbPolyline
 90
       85
 70
   128
 43
0.0
 10
176.7834973621
 20
-182.3447740726
 10
174.4018690935
 20
-182.2418738089
 10
172.0335598562
 20
-181.9337484777
 10
169.6918141963
 20
-181.4221212409
 10
167.3897281052
 20
-180.7098533255
 10
165.1401757823
 20
-179.8009280227
 10
162.9557376367
 20
-178.7004284114
 10
160.8486299325
 20
-177.4145089319
 10
158.8306364707
 20
-175.9503609674
 10
156.9130426894
 20
-174.3161726274
 10
155.1065725508
 20
-172.5210829559
 10
153.4213285688
 20
-170.5751308226
 10
151.8667353112
 20
-168.489198781
 10
150.4514866942
 20
-166.2749522093
 10
149.1834973621
 20
-163.9447740726
 10
148.0698584256
 20
-161.5116956721
 10
147.1167978054
 20
-158.9893237693
 10
146.329645403
 20
-156.3917644909
 10
145.712803294
 20
-153.7335444422
 10
145.2697211096
 20
-151.0295294679
 10
145.0028767453
 20
-148.2948415166
 10
144.9137625028
 20
-145.5447740726
 10
145.0028767453
 20
-142.7947066286
 10
145.2697211096
 20
-140.0600186773
 10
145.712803294
 20
-137.356003703
 10
146.329645403
 20
-134.6977836543
 10
147.1167978054
 20
-132.1002243759
 10
148.0698584256
 20
-129.5778524731
 10
149.1834973621
 20
-127.1447740726
 10
150.4514866942
 20
-124.8145959359
 10
151.8667353112
 20
-122.6003493642
 10
153.4213285688
 20
-120.5144173226
 10
155.1065725508
 20
-118.5684651893
 10
156.9130426894
 20
-116.7733755178
 10
158.8306364707
 20
-115.1391871778
 10
160.8486299325
 20
-113.6750392133
 10
162.9557376367
 20
-112.3891197338
 10
165.1401757823
 20
-111.2886201225
 10
167.3897281052
 20
-110.3796948197
 10
169.6918141963
 20
-109.6674269043
 10
172.0335598563
 20
-109.1557996675
 10
174.4018690935
 20
-108.8476743363
 10
176.7834973621
 20
-108.7447740726
 10
179.1651256307
 20
-108.8476743363
 10
181.533434868
 20
-109.1557996675
 10
183.8751805279
 20
-109.6674269043
 10
186.177266619
 20
-110.3796948197
 10
188.4268189419
 20
-111.2886201225
 10
190.6112570875
 20
-112.3891197338
 10
192.7183647917
 20
-113.6750392133
 10
194.7363582535
 20
-115.1391871778
 10
196.6539520348
 20
-116.7733755178
 10
198.4604221734
 20
-118.5684651893
 10
200.1456661554
 20
-120.5144173226
 10
201.700259413
 20
-122.6003493642
 10
203.11550803
 20
-124.8145959359
 10
204.3834973621
 20
-127.1447740726
 10
205.4971362986
 20
-129.5778524731
 10
206.4501969189
 20
-132.1002243759
 10
207.2373493212
 20
-134.6977836543
 10
207.8541914302
 20
-137.356003703
 10
208.2972736146
 20
-140.0600186773
 10
208.5641179789
 20
-142.7947066286
 10
208.6532322214
 20
-145.5447740726
 10
208.5641179789
 20
-148.2948415166
 10
208.2972736146
 20
-151.0295294679
 10
207.8541914302
 20
-153.7335444422
 10
207.2373493212
 20
-156.3917644909
 10
206.4501969189
 20
-158.9893237693
 10
205.4971362986
 20
-161.5116956721
 10
204.3834973621
 20
-163.9447740726
 10
203.11550803
 20
-166.2749522093
 10
201.700259413
 20
-168.489198781
 10
200.1456661554
 20
-170.5751308226
 10
198.4604221734
 20
-172.5210829559
 10
196.6539520348
 20
-174.3161726274
 10
194.7363582535
 20
-175.9503609674
 10
192.7183647917
 20
-177.4145089319
 10
190.6112570875
 20
-178.7004284114
 10
188.4268189419
 20
-179.8009280227
 10
186.177266619
 20
-180.7098533255
 10
183.8751805279
 20
-181.4221212409
 10
181.533434868
 20
-181.9337484777
 10
179.1651256307
 20
-182.2418738089
 10
176.7834973621
 20
-182.3447740726
  0
ARC
  5
B4
330
1F
100
AcDbEntity
  8
0
  6
Continuous
 62
     7
370
    25
100
AcDbCircle
 10
116.7628782575
 20
-145.5447740726
 30
0.0
 40
36.79999999999999
100
AcDbArc
 50
330.9324627317
 51
29.0675372683
  0
LINE
  5
B5
330
1F
100
AcDbEntity
  8
0
  6
Continuous
 62
     7
370
    25
100
AcDbLine
 10
271.1285373251
 20
-167.591444386
 30
0.0
 11
271.1285373251
 21
-272.5719158373
 31
0.0
  0
LINE
  5
B6
330
1F
100
AcDbEntity
  8
0
  6
Continuous
 62
     7
370
    25
100
AcDbLine
 10
361.1285373251
 20
-272.5719158373
 30
0.0
 11
361.1285373251
 21
-181.5152470745
 31
0.0
  0
LINE
  5
B7
330
1F
100
AcDbEntity
  8
0
  6
Continuous
 62
     7
370
    25
100
AcDbLine
 10
316.616566449
 20
-48.8888491856
 30
0.0
 11
271.6573416575
 21
-164.7665778155
 31
0.0
  0
LINE
  5
B8
330
1F
100
AcDbEntity
  8
0
  6
Continuous
 62
     7
370
    25
100
AcDbLine
 10
361.1285373251
 20
-182.9771754447
 30
0.0
 11
400.5224817609
 21
-81.4433784506
 31
0.0
  0
LWPOLYLINE
  5
B9
330
1F
100
AcDbEntity
  8
0
  6
Continuous
 62
     7
370
    25
100
AcDbPolyline
 90
       94
 70
   128
 43
0.0
 10
284.3087321717
 20
-254.2027333213
 10
286.5294723991
 20
-253.004541643
 10
288.8852663708
 20
-251.8956314051
 10
291.3653651394
 20
-250.8810623108
 10
293.958452583
 20
-249.9654636061
 10
296.6526970384
 20
-249.153012958
 10
299.435805286
 20
-248.4474173923
 10
302.2950786412
 20
-247.8518963798
 10
305.2174708956
 20
-247.3691671463
 10
308.1896478435
 20
-247.0014322746
 10
311.1980481233
 20
-246.7503696545
 10
314.2289450944
 20
-246.6171248273
 10
317.2685094692
 20
-246.6023057584
 10
320.3028724126
 20
-246.7059800639
 10
323.3181888223
 20
-246.9276747017
 10
326.3007005014
 20
-247.2663781301
 10
329.2367989329
 20
-247.7205449229
 10
332.1130873732
 20
-248.2881028214
 10
334.9164419779
 20
-248.9664621888
 10
337.6340716829
 20
-249.7525278271
 10
340.2535765671
 20
-250.6427130991
 10
342.7630044305
 20
-251.6329562934
 10
345.1509053295
 20
-252.7187391576
 10
347.4063838198
 20
-253.8951075135
 10
349.5191486704
 20
-255.156693862
 10
351.4795598199
 20
-256.497741874
 10
353.278672362
 20
-257.9121326551
 10
354.9082773586
 20
-259.3934126644
 10
356.3609392959
 20
-260.9348231611
 10
357.6300300108
 20
-262.5293310426
 10
358.7097589333
 20
-264.1696609352
 10
359.5951995081
 20
-265.8483283897
 10
360.2823116729
 20
-267.5576740316
 10
360.7679602924
 20
-269.2898985088
 10
361.0499294634
 20
-271.0370980783
 10
361.1269326253
 20
-272.7913006692
 10
360.9986184302
 20
-274.5445022575
 10
360.6655723465
 20
-276.2887033864
 10
360.129313987
 20
-278.0159456661
 10
359.3922901757
 20
-279.7183480864
 10
358.457863783
 20
-281.3881429754
 10
357.3302983824
 20
-283.0177114421
 10
356.0147387961
 20
-284.5996181393
 10
354.5171876208
 20
-286.1266451896
 10
352.844477839
 20
-287.5918251188
 10
351.0042416419
 20
-288.9884726468
 10
349.004875605
 20
-290.3102151915
 10
346.8555023771
 20
-291.5510219446
 10
344.5659290552
 20
-292.7052313897
 10
342.1466024372
 20
-293.7675771336
 10
339.6085613557
 20
-294.7332119365
 10
336.9633863098
 20
-295.5977298282
 10
334.2231466268
 20
-296.3571862119
 10
331.4003453916
 20
-297.0081158623
 10
328.5078623991
 20
-297.5475487366
 10
325.5588953855
 20
-297.9730235264
 10
322.566899811
 20
-298.2825988879
 10
319.5455274652
 20
-298.4748622996
 10
316.5085641772
 20
-298.5489365076
 10
313.4698669137
 20
-298.5044835285
 10
310.4433005536
 20
-298.3417061909
 10
307.4426746249
 20
-298.0613472104
 10
304.4816802955
 20
-297.6646858009
 10
301.5738279034
 20
-297.1535318373
 10
298.7323853121
 20
-296.5302175979
 10
295.9703173725
 20
-295.7975871227
 10
293.300226767
 20
-294.9589832365
 10
290.7342965067
 20
-294.0182322964
 10
288.2842343428
 20
-292.9796267332
 10
285.9612193471
 20
-291.8479054659
 10
283.7758509041
 20
-290.6282322791
 10
281.7381003488
 20
-289.3261722618
 10
279.8572654697
 20
-287.9476664152
 10
278.1419280848
 20
-286.4990045453
 10
276.5999148853
 20
-284.9867965639
 10
275.2382617237
 20
-283.4179423292
 10
274.0631815111
 20
-281.7996001633
 10
273.0800358689
 20
-280.1391541903
 10
272.2933106653
 20
-278.4441806443
 10
271.7065955469
 20
-276.7224133008
 10
271.3225675602
 20
-274.9817081894
 10
271.1429789368
 20
-273.2300077482
 10
271.1686490984
 20
-271.4753045845
 10
271.399460918
 20
-269.7256050065
 10
271.8343612542
 20
-267.988892492
 10
272.4713657565
 20
-266.2730912618
 10
273.3075679194
 20
-264.5860301234
 10
274.3391523444
 20
-262.93540675
 10
275.5614121481
 20
-261.3287525572
 10
276.9687704396
 20
-259.7733983398
 10
278.5548057656
 20
-258.2764408222
 10
280.3122814109
 20
-256.8447102784
 10
282.2331784171
 20
-255.4847393663
 10
284.3087321717
 20
-254.2027333213
  0
LWPOLYLINE
  5
BA
330
1F
100
AcDbEntity
  8
0
  6
Continuous
 62
     7
370
    25
100
AcDbPolyline
 90
       85
 70
   128
 43
0.0
 10
290.1070077774
 20
-257.5500065797
 10
288.2351779134
 20
-258.7145995694
 10
286.5193390297
 20
-259.9566882927
 10
284.9690867935
 20
-261.2693264856
 10
283.5930908441
 20
-262.645173343
 10
282.3990463091
 20
-264.076534571
 10
281.3936307698
 20
-265.5554054171
 10
280.5824669177
 20
-267.0735154357
 10
279.9700911101
 20
-268.6223747396
 10
279.559928001
 20
-270.1933214795
 10
279.3542713889
 20
-271.7775702838
 10
279.3542713889
 20
-273.3662613907
 10
279.559928001
 20
-274.9505101951
 10
279.9700911101
 20
-276.5214569349
 10
280.5824669177
 20
-278.0703162389
 10
281.3936307698
 20
-279.5884262574
 10
282.3990463091
 20
-281.0672971036
 10
283.5930908441
 20
-282.4986583316
 10
284.9690867935
 20
-283.8745051889
 10
286.5193390297
 20
-285.1871433819
 10
288.2351779134
 20
-286.4292321052
 10
290.1070077774
 20
-287.5938250948
 10
292.1243605901
 20
-288.6744094745
 10
294.275954496
 20
-289.6649421779
 10
296.5497569093
 20
-290.5598837445
 10
298.9330518047
 20
-291.354229298
 10
301.4125108301
 20
-292.0435365357
 10
303.9742678452
 20
-292.6239505721
 10
306.6039964653
 20
-293.0922254964
 10
309.2869901815
 20
-293.4457425253
 10
312.0082446045
 20
-293.6825246481
 10
314.7525413757
 20
-293.8012476832
 10
317.5045332745
 20
-293.8012476832
 10
320.2488300457
 20
-293.6825246481
 10
322.9700844687
 20
-293.4457425253
 10
325.6530781849
 20
-293.0922254964
 10
328.2828068051
 20
-292.6239505721
 10
330.8445638201
 20
-292.0435365357
 10
333.3240228456
 20
-291.354229298
 10
335.7073177409
 20
-290.5598837445
 10
337.9811201542
 20
-289.6649421779
 10
340.1327140601
 20
-288.6744094745
 10
342.1500668728
 20
-287.5938250948
 10
344.0218967369
 20
-286.4292321052
 10
345.7377356205
 20
-285.1871433819
 10
347.2879878567
 20
-283.8745051889
 10
348.6639838061
 20
-282.4986583316
 10
349.8580283411
 20
-281.0672971036
 10
350.8634438805
 20
-279.5884262574
 10
351.6746077325
 20
-278.0703162389
 10
352.2869835401
 20
-276.5214569349
 10
352.6971466492
 20
-274.9505101951
 10
352.9028032613
 20
-273.3662613907
 10
352.9028032613
 20
-271.7775702838
 10
352.6971466492
 20
-270.1933214795
 10
352.2869835401
 20
-268.6223747396
 10
351.6746077325
 20
-267.0735154357
 10
350.8634438805
 20
-265.5554054171
 10
349.8580283411
 20
-264.076534571
 10
348.6639838061
 20
-262.645173343
 10
347.2879878567
 20
-261.2693264856
 10
345.7377356205
 20
-259.9566882927
 10
344.0218967369
 20
-258.7145995694
 10
342.1500668728
 20
-257.5500065797
 10
340.1327140601
 20
-256.4694222001
 10
337.9811201542
 20
-255.4788894966
 10
335.7073177409
 20
-254.5839479301
 10
333.3240228456
 20
-253.7896023766
 10
330.8445638201
 20
-253.1002951388
 10
328.2828068051
 20
-252.5198811024
 10
325.6530781849
 20
-252.0516061781
 10
322.9700844687
 20
-251.6980891493
 10
320.2488300457
 20
-251.4613070264
 10
317.5045332745
 20
-251.3425839913
 10
314.7525413757
 20
-251.3425839913
 10
312.0082446045
 20
-251.4613070264
 10
309.2869901815
 20
-251.6980891493
 10
306.6039964653
 20
-252.0516061781
 10
303.9742678452
 20
-252.5198811024
 10
301.4125108301
 20
-253.1002951388
 10
298.9330518047
 20
-253.7896023766
 10
296.5497569093
 20
-254.5839479301
 10
294.275954496
 20
-255.4788894966
 10
292.1243605901
 20
-256.4694222001
 10
290.1070077774
 20
-257.5500065797
  0
ELLIPSE
  5
BB
330
1F
100
AcDbEntity
  8
0
  6
Continuous
 62
     7
370
    25
100
AcDbEllipse
 10
316.1285373251
 20
-174.5533457302
 30
0.0
 11
44.86760415402205
 21
-8.399045713105068
 31
0.0
210
0.0
220
0.0
230
1.0
 40
0.4106849769
 41
0.0767277489784157
 42
3.218320402568243
  0
LWPOLYLINE
  5
BC
330
1F
100
AcDbEntity
  8
0
  6
Continuous
 62
     7
370
    25
100
AcDbPolyline
 90
       39
 70
   128
 43
0.0
 10
326.7497189516
 20
-46.7969313021
 10
328.6826620532
 20
-47.005181797
 10
330.7519720515
 20
-47.2962964593
 10
332.9482071596
 20
-47.6689469996
 10
335.2613464604
 20
-48.121433099
 10
337.6808356298
 20
-48.6516901671
 10
340.1956350937
 20
-49.2572987626
 10
342.7942703989
 20
-49.9354956323
 10
345.4648845686
 20
-50.6831863195
 10
348.1952922028
 20
-51.4969592831
 10
350.9730350777
 20
-52.3731014636
 10
353.7854389898
 20
-53.3076152254
 10
356.6196715849
 20
-54.2962365963
 10
359.4628009099
 20
-55.3344547239
 10
362.3018544176
 20
-56.4175324569
 10
365.1238781583
 20
-57.5405279601
 10
367.9159958846
 20
-58.6983172626
 10
370.665467804
 20
-59.8856176373
 10
373.3597487066
 20
-61.097011705
 10
375.9865452066
 20
-62.3269721523
 10
378.5338718341
 20
-63.5698869518
 10
380.9901057219
 20
-64.8200849684
 10
383.3440396382
 20
-66.0718618353
 10
385.5849331224
 20
-67.3195059818
 10
387.7025614916
 20
-68.5573246936
 10
389.687262493
 20
-69.7796700881
 10
391.5299803914
 20
-70.9809648835
 10
393.2223072876
 20
-72.1557278472
 10
394.7565214821
 20
-73.2985988051
 10
396.1256227074
 20
-74.4043630994
 10
397.3233640686
 20
-75.4679753811
 10
398.3442805467
 20
-76.4845826313
 10
399.1837139339
 20
-77.4495463043
 10
399.8378340882
 20
-78.3584634922
 10
400.3036564093
 20
-79.2071870143
 10
400.5790554568
 20
-79.9918443399
 10
400.6627746481
 20
-80.7088552576
 10
400.5544319917
 20
-81.354948211
 10
400.5224817609
 20
-81.4433784506
  0
LWPOLYLINE
  5
BD
330
1F
100
AcDbEntity
  8
0
  6
Continuous
 62
     7
370
    25
100
AcDbPolyline
 90
       11
 70
   128
 43
0.0
 10
316.616566449
 20
-48.8888491856
 10
316.7106904546
 20
-48.6817614451
 10
317.1059256432
 20
-48.1474680502
 10
317.6903497214
 20
-47.6908268325
 10
318.4612960963
 20
-47.3139213413
 10
319.4152471164
 20
-47.0184713097
 10
320.5478501219
 20
-46.8058248085
 10
321.8539373052
 20
-46.676952095
 10
323.3275492899
 20
-46.6324411857
 10
324.9619623227
 20
-46.6724951738
 10
326.7497189516
 20
-46.7969313021
  0
ENDSEC
  0
SECTION
  2
OBJECTS
  0
DICTIONARY
  5
C
330
0
100
AcDbDictionary
281
     1
  3
ACAD_GROUP
350
D
  3
ACAD_LAYOUT
350
1A
  3
ACAD_MLINESTYLE
350
17
  3
ACAD_PLOTSETTINGS
350
19
  3
ACAD_PLOTSTYLENAME
350
E
  3
ACAD_SCALELIST
350
47
  3
DWGPROPS
350
BE
  0
DICTIONARY
  5
D
102
{ACAD_REACTORS
330
C
102
}
330
C
100
AcDbDictionary
281
     1
  0
DICTIONARY
  5
1A
102
{ACAD_REACTORS
330
C
102
}
330
C
100
AcDbDictionary
281
     1
  3
Layout1
350
1E
  3
Layout2
350
26
  3
Model
350
22
  0
DICTIONARY
  5
17
102
{ACAD_REACTORS
330
C
102
}
330
C
100
AcDbDictionary
281
     1
  3
Standard
350
18
  0
DICTIONARY
  5
19
102
{ACAD_REACTORS
330
C
102
}
330
C
100
AcDbDictionary
281
     1
  0
ACDBDICTIONARYWDFLT
  5
E
102
{ACAD_REACTORS
330
C
102
}
330
C
100
AcDbDictionary
281
     1
  3
Normal
350
F
100
AcDbDictionaryWithDefault
340
F
  0
DICTIONARY
  5
47
102
{ACAD_REACTORS
330
C
102
}
330
C
100
AcDbDictionary
281
     1
  3
A0
350
48
  3
A1
350
49
  3
A2
350
4A
  3
A3
350
4B
  3
A4
350
4C
  3
A5
350
4D
  3
A6
350
4E
  3
A7
350
4F
  3
A8
350
50
  3
A9
350
51
  3
B0
350
52
  3
B1
350
53
  3
B2
350
54
  3
B3
350
55
  3
B4
350
56
  3
B5
350
57
  3
B6
350
58
  3
B7
350
59
  3
B8
350
5A
  3
B9
350
5B
  3
C0
350
5C
  3
C1
350
5D
  3
C2
350
5E
  3
C3
350
5F
  3
C4
350
60
  3
C5
350
61
  3
C6
350
62
  3
C7
350
63
  3
C8
350
64
  3
C9
350
65
  3
D0
350
66
  3
D1
350
67
  3
D2
350
68
  0
XRECORD
  5
BE
102
{ACAD_REACTORS
330
C
102
}
330
C
100
AcDbXrecord
280
     1
  1
DWGPROPS COOKIE
  2

  3

  4

  6

  7

  8
b.kav
  9

300
=
301
=
302
=
303
=
304
=
305
=
306
=
307
=
308
=
309
=
 40
0.0
 41
2460682.394523877
 42
2460682.394524248
  1

 90
        0
  0
LAYOUT
  5
1E
102
{ACAD_REACTORS
330
1A
102
}
330
1A
100
AcDbPlotSettings
  1

  2
none_device
  4

  6

 40
0.0
 41
0.0
 42
0.0
 43
0.0
 44
0.0
 45
0.0
 46
0.0
 47
0.0
 48
0.0
 49
0.0
140
0.0
141
0.0
142
1.0
143
1.0
 70
   688
 72
     1
 73
     0
 74
     5
  7

 75
    16
147
1.0
148
0.0
149
0.0
100
AcDbLayout
  1
Layout1
 70
     1
 71
     1
 10
0.0
 20
0.0
 11
420.0
 21
297.0
 12
0.0
 22
0.0
 32
0.0
 14
1.0000000000E+20
 24
1.0000000000E+20
 34
1.0000000000E+20
 15
-1.0000000000E+20
 25
-1.0000000000E+20
 35
-1.0000000000E+20
146
0.0
 13
0.0
 23
0.0
 33
0.0
 16
1.0
 26
0.0
 36
0.0
 17
0.0
 27
1.0
 37
0.0
 76
     0
330
1B
  0
LAYOUT
  5
26
102
{ACAD_REACTORS
330
1A
102
}
330
1A
100
AcDbPlotSettings
  1

  2
none_device
  4

  6

 40
0.0
 41
0.0
 42
0.0
 43
0.0
 44
0.0
 45
0.0
 46
0.0
 47
0.0
 48
0.0
 49
0.0
140
0.0
141
0.0
142
1.0
143
1.0
 70
   688
 72
     1
 73
     0
 74
     5
  7

 75
    16
147
1.0
148
0.0
149
0.0
100
AcDbLayout
  1
Layout2
 70
     1
 71
     2
 10
0.0
 20
0.0
 11
0.0
 21
0.0
 12
0.0
 22
0.0
 32
0.0
 14
0.0
 24
0.0
 34
0.0
 15
0.0
 25
0.0
 35
0.0
146
0.0
 13
0.0
 23
0.0
 33
0.0
 16
1.0
 26
0.0
 36
0.0
 17
0.0
 27
1.0
 37
0.0
 76
     0
330
23
  0
LAYOUT
  5
22
102
{ACAD_REACTORS
330
1A
102
}
330
1A
100
AcDbPlotSettings
  1

  2
none_device
  4
Letter_(8.50_x_11.00_Inches)
  6

 40
6.35
 41
6.35
 42
6.35000508
 43
6.35000508
 44
215.9
 45
279.4
 46
0.0
 47
0.0
 48
0.0
 49
0.0
140
0.0
141
0.0
142
1.0
143
1.0
 70
  1712
 72
     1
 73
     0
 74
     0
  7

 75
     0
147
1.0
148
0.0
149
0.0
100
AcDbLayout
  1
Model
 70
     1
 71
     0
 10
0.0
 20
0.0
 11
279.4
 21
215.9
 12
0.0
 22
0.0
 32
0.0
 14
0.0
 24
0.0
 34
0.0
 15
279.4
 25
215.9
 35
0.0
146
0.0
 13
0.0
 23
0.0
 33
0.0
 16
1.0
 26
0.0
 36
0.0
 17
0.0
 27
1.0
 37
0.0
 76
     0
330
1F
331
29
  0
MLINESTYLE
  5
18
102
{ACAD_REACTORS
330
17
102
}
330
17
100
AcDbMlineStyle
  2
Standard
 70
     0
  3

 62
   256
 51
90.0
 52
90.0
 71
     2
 49
0.5
 62
   256
  6
BYLAYER
 49
-0.5
 62
   256
  6
BYLAYER
  0
ACDBPLACEHOLDER
  5
F
102
{ACAD_REACTORS
330
E
102
}
330
E
  0
SCALE
  5
48
102
{ACAD_REACTORS
330
47
102
}
330
47
100
AcDbScale
 70
     0
300
1:1
140
1.0
141
1.0
290
     1
  0
SCALE
  5
49
102
{ACAD_REACTORS
330
47
102
}
330
47
100
AcDbScale
 70
     0
300
1:2
140
1.0
141
2.0
290
     0
  0
SCALE
  5
4A
102
{ACAD_REACTORS
330
47
102
}
330
47
100
AcDbScale
 70
     0
300
1:4
140
1.0
141
4.0
290
     0
  0
SCALE
  5
4B
102
{ACAD_REACTORS
330
47
102
}
330
47
100
AcDbScale
 70
     0
300
1:5
140
1.0
141
5.0
290
     0
  0
SCALE
  5
4C
102
{ACAD_REACTORS
330
47
102
}
330
47
100
AcDbScale
 70
     0
300
1:8
140
1.0
141
8.0
290
     0
  0
SCALE
  5
4D
102
{ACAD_REACTORS
330
47
102
}
330
47
100
AcDbScale
 70
     0
300
1:10
140
1.0
141
10.0
290
     0
  0
SCALE
  5
4E
102
{ACAD_REACTORS
330
47
102
}
330
47
100
AcDbScale
 70
     0
300
1:16
140
1.0
141
16.0
290
     0
  0
SCALE
  5
4F
102
{ACAD_REACTORS
330
47
102
}
330
47
100
AcDbScale
 70
     0
300
1:20
140
1.0
141
20.0
290
     0
  0
SCALE
  5
50
102
{ACAD_REACTORS
330
47
102
}
330
47
100
AcDbScale
 70
     0
300
1:30
140
1.0
141
30.0
290
     0
  0
SCALE
  5
51
102
{ACAD_REACTORS
330
47
102
}
330
47
100
AcDbScale
 70
     0
300
1:40
140
1.0
141
40.0
290
     0
  0
SCALE
  5
52
102
{ACAD_REACTORS
330
47
102
}
330
47
100
AcDbScale
 70
     0
300
1:50
140
1.0
141
50.0
290
     0
  0
SCALE
  5
53
102
{ACAD_REACTORS
330
47
102
}
330
47
100
AcDbScale
 70
     0
300
1:100
140
1.0
141
100.0
290
     0
  0
SCALE
  5
54
102
{ACAD_REACTORS
330
47
102
}
330
47
100
AcDbScale
 70
     0
300
2:1
140
2.0
141
1.0
290
     0
  0
SCALE
  5
55
102
{ACAD_REACTORS
330
47
102
}
330
47
100
AcDbScale
 70
     0
300
4:1
140
4.0
141
1.0
290
     0
  0
SCALE
  5
56
102
{ACAD_REACTORS
330
47
102
}
330
47
100
AcDbScale
 70
     0
300
8:1
140
8.0
141
1.0
290
     0
  0
SCALE
  5
57
102
{ACAD_REACTORS
330
47
102
}
330
47
100
AcDbScale
 70
     0
300
10:1
140
10.0
141
1.0
290
     0
  0
SCALE
  5
58
102
{ACAD_REACTORS
330
47
102
}
330
47
100
AcDbScale
 70
     0
300
100:1
140
100.0
141
1.0
290
     0
  0
SCALE
  5
59
102
{ACAD_REACTORS
330
47
102
}
330
47
100
AcDbScale
 70
     0
300
1/128" = 1'-0"
140
0.0078125
141
12.0
290
     0
  0
SCALE
  5
5A
102
{ACAD_REACTORS
330
47
102
}
330
47
100
AcDbScale
 70
     0
300
1/64" = 1'-0"
140
0.015625
141
12.0
290
     0
  0
SCALE
  5
5B
102
{ACAD_REACTORS
330
47
102
}
330
47
100
AcDbScale
 70
     0
300
1/32" = 1'-0"
140
0.03125
141
12.0
290
     0
  0
SCALE
  5
5C
102
{ACAD_REACTORS
330
47
102
}
330
47
100
AcDbScale
 70
     0
300
1/16" = 1'-0"
140
0.0625
141
12.0
290
     0
  0
SCALE
  5
5D
102
{ACAD_REACTORS
330
47
102
}
330
47
100
AcDbScale
 70
     0
300
3/32" = 1'-0"
140
0.09375
141
12.0
290
     0
  0
SCALE
  5
5E
102
{ACAD_REACTORS
330
47
102
}
330
47
100
AcDbScale
 70
     0
300
1/8" = 1'-0"
140
0.125
141
12.0
290
     0
  0
SCALE
  5
5F
102
{ACAD_REACTORS
330
47
102
}
330
47
100
AcDbScale
 70
     0
300
3/16" = 1'-0"
140
0.1875
141
12.0
290
     0
  0
SCALE
  5
60
102
{ACAD_REACTORS
330
47
102
}
330
47
100
AcDbScale
 70
     0
300
1/4" = 1'-0"
140
0.25
141
12.0
290
     0
  0
SCALE
  5
61
102
{ACAD_REACTORS
330
47
102
}
330
47
100
AcDbScale
 70
     0
300
3/8" = 1'-0"
140
0.375
141
12.0
290
     0
  0
SCALE
  5
62
102
{ACAD_REACTORS
330
47
102
}
330
47
100
AcDbScale
 70
     0
300
1/2" = 1'-0"
140
0.5
141
12.0
290
     0
  0
SCALE
  5
63
102
{ACAD_REACTORS
330
47
102
}
330
47
100
AcDbScale
 70
     0
300
3/4" = 1'-0"
140
0.75
141
12.0
290
     0
  0
SCALE
  5
64
102
{ACAD_REACTORS
330
47
102
}
330
47
100
AcDbScale
 70
     0
300
1" = 1'-0"
140
1.0
141
12.0
290
     0
  0
SCALE
  5
65
102
{ACAD_REACTORS
330
47
102
}
330
47
100
AcDbScale
 70
     0
300
1-1/2" = 1'-0"
140
1.5
141
12.0
290
     0
  0
SCALE
  5
66
102
{ACAD_REACTORS
330
47
102
}
330
47
100
AcDbScale
 70
     0
300
3" = 1'-0"
140
3.0
141
12.0
290
     0
  0
SCALE
  5
67
102
{ACAD_REACTORS
330
47
102
}
330
47
100
AcDbScale
 70
     0
300
6" = 1'-0"
140
6.0
141
12.0
290
     0
  0
SCALE
  5
68
102
{ACAD_REACTORS
330
47
102
}
330
47
100
AcDbScale
 70
     0
300
1'-0" = 1'-0"
140
12.0
141
12.0
290
     0
  0
ENDSEC
  0
EOF
